ISO-10303-21;
HEADER;
FILE_DESCRIPTION (( 'STEP AP203' ),
    '1' );
FILE_NAME ('BK7-LNPBSC-25.4-780.STEP',
    '2021-01-05T02:02:46',
    ( '' ),
    ( '' ),
    'SwSTEP 2.0',
    'SolidWorks 2020',
    '' );
FILE_SCHEMA (( 'CONFIG_CONTROL_DESIGN' ));
ENDSEC;

DATA;
#1 = CARTESIAN_POINT ( 'NONE',  ( -12.70000000000000284, 12.70000000000000284, 12.69999999999999929 ) ) ;
#2 = DIRECTION ( 'NONE',  ( -1.000000000000000000, 0.000000000000000000, 0.000000000000000000 ) ) ;
#3 = FACE_OUTER_BOUND ( 'NONE', #77, .T. ) ;
#4 = PLANE ( 'NONE',  #196 ) ;
#5 = CARTESIAN_POINT ( 'NONE',  ( 12.69999999999999929, 12.69999999999999929, 12.69999999999999929 ) ) ;
#6 = VECTOR ( 'NONE', #171, 1000.000000000000114 ) ;
#7 = VERTEX_POINT ( 'NONE', #244 ) ;
#8 = CARTESIAN_POINT ( 'NONE',  ( 0.000000000000000000, 0.000000000000000000, 0.000000000000000000 ) ) ;
#9 = CARTESIAN_POINT ( 'NONE',  ( 12.69999999999999929, 12.69999999999999929, 12.69999999999999929 ) ) ;
#10 = AXIS2_PLACEMENT_3D ( 'NONE', #269, #91, #218 ) ;
#11 = ADVANCED_FACE ( 'NONE', ( #111 ), #4, .F. ) ;
#12 = APPROVAL_ROLE ( '' ) ;
#13 = DIRECTION ( 'NONE',  ( 0.7071067811865475727, 0.7071067811865475727, 0.000000000000000000 ) ) ;
#14 = DIRECTION ( 'NONE',  ( 0.000000000000000000, 0.000000000000000000, 1.000000000000000000 ) ) ;
#15 = APPROVAL_STATUS ( 'not_yet_approved' ) ;
#16 = APPROVAL_PERSON_ORGANIZATION ( #92, #81, #122 ) ;
#17 = VERTEX_POINT ( 'NONE', #31 ) ;
#18 = EDGE_CURVE ( 'NONE', #163, #285, #239, .T. ) ;
#19 = ORIENTED_EDGE ( 'NONE', *, *, #302, .T. ) ;
#20 = ORIENTED_EDGE ( 'NONE', *, *, #168, .F. ) ;
#21 = LINE ( 'NONE', #78, #307 ) ;
#22 = DIRECTION ( 'NONE',  ( -0.000000000000000000, 0.000000000000000000, 1.000000000000000000 ) ) ;
#23 = DIRECTION ( 'NONE',  ( 0.000000000000000000, 0.000000000000000000, 1.000000000000000000 ) ) ;
#24 = ORGANIZATION ( 'UNSPECIFIED', 'UNSPECIFIED', '' ) ;
#25 = DIRECTION ( 'NONE',  ( -0.000000000000000000, 1.000000000000000000, -0.000000000000000000 ) ) ;
#26 = DIRECTION ( 'NONE',  ( -0.7071067811865474617, -0.7071067811865474617, 0.000000000000000000 ) ) ;
#27 = ADVANCED_FACE ( 'NONE', ( #54 ), #164, .F. ) ;
#28 = ORIENTED_EDGE ( 'NONE', *, *, #64, .T. ) ;
#29 = EDGE_CURVE ( 'NONE', #263, #285, #136, .T. ) ;
#30 = DIRECTION ( 'NONE',  ( 1.000000000000000000, -2.220446049250312588E-16, 0.000000000000000000 ) ) ;
#31 = CARTESIAN_POINT ( 'NONE',  ( -12.70000000000000284, 12.70000000000000284, -12.69999999999999929 ) ) ;
#32 = CARTESIAN_POINT ( 'NONE',  ( 12.69999999999999574, 12.69999999999999574, 12.69999999999999929 ) ) ;
#33 =( LENGTH_UNIT ( ) NAMED_UNIT ( * ) SI_UNIT ( .MILLI., .METRE. ) );
#34 = PLANE ( 'NONE',  #237 ) ;
#35 = VECTOR ( 'NONE', #26, 1000.000000000000114 ) ;
#36 = EDGE_CURVE ( 'NONE', #187, #152, #141, .T. ) ;
#37 = ORIENTED_EDGE ( 'NONE', *, *, #130, .T. ) ;
#38 = EDGE_CURVE ( 'NONE', #117, #152, #247, .T. ) ;
#39 = ORIENTED_EDGE ( 'NONE', *, *, #64, .F. ) ;
#40 = ORIENTED_EDGE ( 'NONE', *, *, #130, .F. ) ;
#41 = LOCAL_TIME ( 10, 2, 46.00000000000000000, #98 ) ;
#42 = LINE ( 'NONE', #221, #246 ) ;
#43 = ORIENTED_EDGE ( 'NONE', *, *, #36, .F. ) ;
#44 = EDGE_CURVE ( 'NONE', #210, #252, #160, .T. ) ;
#45 = CARTESIAN_POINT ( 'NONE',  ( 12.69999999999999929, 12.69999999999999929, 12.69999999999999929 ) ) ;
#46 = DIRECTION ( 'NONE',  ( 0.000000000000000000, 0.000000000000000000, 1.000000000000000000 ) ) ;
#47 = PLANE ( 'NONE',  #149 ) ;
#48 = DIRECTION ( 'NONE',  ( 1.000000000000000000, 0.000000000000000000, 0.000000000000000000 ) ) ;
#49 = VECTOR ( 'NONE', #53, 1000.000000000000000 ) ;
#50 = CARTESIAN_POINT ( 'NONE',  ( 12.69999999999999574, 12.69999999999999574, -12.69999999999999929 ) ) ;
#51 = ORIENTED_EDGE ( 'NONE', *, *, #106, .T. ) ;
#52 = MANIFOLD_SOLID_BREP ( 'Í¹Ì¨-À', #220 ) ;
#53 = DIRECTION ( 'NONE',  ( -2.220446049250312588E-16, 1.000000000000000000, 0.000000000000000000 ) ) ;
#54 = FACE_OUTER_BOUND ( 'NONE', #233, .T. ) ;
#55 = EDGE_LOOP ( 'NONE', ( #86, #43, #194, #28 ) ) ;
#56 = CC_DESIGN_APPROVAL ( #90, ( #213 ) ) ;
#57 = DATE_TIME_ROLE ( 'creation_date' ) ;
#58 = CARTESIAN_POINT ( 'NONE',  ( 12.69999999999999574, 12.69999999999999574, 12.69999999999999929 ) ) ;
#59 = EDGE_CURVE ( 'NONE', #296, #163, #241, .T. ) ;
#60 = PERSON_AND_ORGANIZATION ( #173, #24 ) ;
#61 = CARTESIAN_POINT ( 'NONE',  ( -12.69999999999999751, -12.69999999999999929, 12.69999999999999929 ) ) ;
#62 = DATE_AND_TIME ( #289, #121 ) ;
#63 = CARTESIAN_POINT ( 'NONE',  ( -12.69999999999999751, -12.69999999999999929, 12.69999999999999929 ) ) ;
#64 = EDGE_CURVE ( 'NONE', #252, #117, #312, .T. ) ;
#65 = AXIS2_PLACEMENT_3D ( 'NONE', #157, #137, #23 ) ;
#66 = PERSON_AND_ORGANIZATION_ROLE ( 'creator' ) ;
#67 = PERSON_AND_ORGANIZATION ( #173, #24 ) ;
#68 = EDGE_LOOP ( 'NONE', ( #19, #39, #75, #255 ) ) ;
#69 = PERSON_AND_ORGANIZATION ( #173, #24 ) ;
#70 = CC_DESIGN_APPROVAL ( #165, ( #207 ) ) ;
#71 = ORIENTED_EDGE ( 'NONE', *, *, #261, .F. ) ;
#72 = PERSON_AND_ORGANIZATION ( #173, #24 ) ;
#73 = ORIENTED_EDGE ( 'NONE', *, *, #168, .T. ) ;
#74 = DIRECTION ( 'NONE',  ( -0.000000000000000000, -0.000000000000000000, -1.000000000000000000 ) ) ;
#75 = ORIENTED_EDGE ( 'NONE', *, *, #44, .F. ) ;
#76 = FACE_OUTER_BOUND ( 'NONE', #267, .T. ) ;
#77 = EDGE_LOOP ( 'NONE', ( #277, #143, #231 ) ) ;
#78 = CARTESIAN_POINT ( 'NONE',  ( 12.69999999999999929, 12.69999999999999929, -12.69999999999999929 ) ) ;
#79 = ORIENTED_EDGE ( 'NONE', *, *, #204, .T. ) ;
#80 = AXIS2_PLACEMENT_3D ( 'NONE', #9, #89, #144 ) ;
#81 = APPROVAL ( #169, 'UNSPECIFIED' ) ;
#82 = CARTESIAN_POINT ( 'NONE',  ( 12.69999999999999929, 12.69999999999999929, 12.69999999999999929 ) ) ;
#83 = ORIENTED_EDGE ( 'NONE', *, *, #159, .T. ) ;
#84 = LINE ( 'NONE', #193, #49 ) ;
#85 = DIRECTION ( 'NONE',  ( 0.000000000000000000, 0.000000000000000000, 1.000000000000000000 ) ) ;
#86 = ORIENTED_EDGE ( 'NONE', *, *, #38, .T. ) ;
#87 = COORDINATED_UNIVERSAL_TIME_OFFSET ( 8, 0, .AHEAD. ) ;
#88 = VECTOR ( 'NONE', #226, 1000.000000000000000 ) ;
#89 = DIRECTION ( 'NONE',  ( 0.7071067811865475727, -0.7071067811865475727, 0.000000000000000000 ) ) ;
#90 = APPROVAL ( #15, 'UNSPECIFIED' ) ;
#91 = DIRECTION ( 'NONE',  ( 0.000000000000000000, 1.000000000000000000, 0.000000000000000000 ) ) ;
#92 = PERSON_AND_ORGANIZATION ( #173, #24 ) ;
#93 = FACE_OUTER_BOUND ( 'NONE', #134, .T. ) ;
#94 = VECTOR ( 'NONE', #74, 1000.000000000000000 ) ;
#95 = AXIS2_PLACEMENT_3D ( 'NONE', #133, #279, #321 ) ;
#96 = PERSON_AND_ORGANIZATION_ROLE ( 'classification_officer' ) ;
#97 = VECTOR ( 'NONE', #268, 1000.000000000000000 ) ;
#98 = COORDINATED_UNIVERSAL_TIME_OFFSET ( 8, 0, .AHEAD. ) ;
#99 = ORIENTED_EDGE ( 'NONE', *, *, #204, .F. ) ;
#100 = PRODUCT_DEFINITION_SHAPE ( 'NONE', 'NONE',  #207 ) ;
#101 = ADVANCED_FACE ( 'NONE', ( #93 ), #34, .F. ) ;
#102 = CARTESIAN_POINT ( 'NONE',  ( 12.69999999999999574, 12.69999999999999574, 12.69999999999999929 ) ) ;
#103 = CC_DESIGN_DATE_AND_TIME_ASSIGNMENT ( #297, #128, ( #213 ) ) ;
#104 = ORIENTED_EDGE ( 'NONE', *, *, #59, .F. ) ;
#105 = DIRECTION ( 'NONE',  ( -2.220446049250312588E-16, 1.000000000000000000, 0.000000000000000000 ) ) ;
#106 = EDGE_CURVE ( 'NONE', #252, #187, #123, .T. ) ;
#107 = CARTESIAN_POINT ( 'NONE',  ( 12.69999999999999574, 12.69999999999999574, -12.69999999999999929 ) ) ;
#108 = CARTESIAN_POINT ( 'NONE',  ( 12.69999999999999574, 12.69999999999999574, -12.69999999999999929 ) ) ;
#109 = DIRECTION ( 'NONE',  ( 1.000000000000000000, 0.000000000000000000, 0.000000000000000000 ) ) ;
#110 = APPLICATION_CONTEXT ( 'configuration controlled 3d designs of mechanical parts and assemblies' ) ;
#111 = FACE_OUTER_BOUND ( 'NONE', #167, .T. ) ;
#112 = CLOSED_SHELL ( 'NONE', ( #101, #27, #305, #155, #253 ) ) ;
#113 = CARTESIAN_POINT ( 'NONE',  ( -12.69999999999999574, -12.69999999999999396, 12.69999999999999929 ) ) ;
#114 = LOCAL_TIME ( 10, 2, 46.00000000000000000, #228 ) ;
#115 = APPLICATION_PROTOCOL_DEFINITION ( 'international standard', 'config_control_design', 1994, #110 ) ;
#116 = ADVANCED_FACE ( 'NONE', ( #176 ), #315, .F. ) ;
#117 = VERTEX_POINT ( 'NONE', #198 ) ;
#118 =( NAMED_UNIT ( * ) SI_UNIT ( $, .STERADIAN. ) SOLID_ANGLE_UNIT ( ) );
#119 = VECTOR ( 'NONE', #120, 1000.000000000000000 ) ;
#120 = DIRECTION ( 'NONE',  ( 0.000000000000000000, 0.000000000000000000, -1.000000000000000000 ) ) ;
#121 = LOCAL_TIME ( 10, 2, 46.00000000000000000, #201 ) ;
#122 = APPROVAL_ROLE ( '' ) ;
#123 = LINE ( 'NONE', #63, #88 ) ;
#124 = CC_DESIGN_PERSON_AND_ORGANIZATION_ASSIGNMENT ( #69, #96, ( #213 ) ) ;
#125 = LINE ( 'NONE', #284, #6 ) ;
#126 = VECTOR ( 'NONE', #265, 999.9999999999998863 ) ;
#127 = LOCAL_TIME ( 10, 2, 46.00000000000000000, #87 ) ;
#128 = DATE_TIME_ROLE ( 'classification_date' ) ;
#129 = VERTEX_POINT ( 'NONE', #170 ) ;
#130 = EDGE_CURVE ( 'NONE', #296, #263, #172, .T. ) ;
#131 = ADVANCED_BREP_SHAPE_REPRESENTATION ( 'BK7-LNPBSC-25.4-780', ( #52, #166, #203 ), #234 ) ;
#132 = CC_DESIGN_PERSON_AND_ORGANIZATION_ASSIGNMENT ( #249, #142, ( #243 ) ) ;
#133 = CARTESIAN_POINT ( 'NONE',  ( 0.000000000000000000, 0.000000000000000000, -12.69999999999999929 ) ) ;
#134 = EDGE_LOOP ( 'NONE', ( #184, #40, #278, #181 ) ) ;
#135 = CARTESIAN_POINT ( 'NONE',  ( -12.69999999999999751, -12.69999999999999929, 12.69999999999999929 ) ) ;
#136 = LINE ( 'NONE', #108, #126 ) ;
#137 = DIRECTION ( 'NONE',  ( 1.000000000000000000, -2.220446049250312588E-16, 0.000000000000000000 ) ) ;
#138 = PLANE ( 'NONE',  #192 ) ;
#139 = ORIENTED_EDGE ( 'NONE', *, *, #283, .F. ) ;
#140 = DIRECTION ( 'NONE',  ( -2.220446049250312588E-16, 1.000000000000000000, 0.000000000000000000 ) ) ;
#141 = LINE ( 'NONE', #189, #232 ) ;
#142 = PERSON_AND_ORGANIZATION_ROLE ( 'design_owner' ) ;
#143 = ORIENTED_EDGE ( 'NONE', *, *, #283, .T. ) ;
#144 = DIRECTION ( 'NONE',  ( 0.7071067811865474617, 0.7071067811865474617, 0.000000000000000000 ) ) ;
#145 = CARTESIAN_POINT ( 'NONE',  ( 12.69999999999999574, 12.69999999999999574, 12.69999999999999929 ) ) ;
#146 = DATE_AND_TIME ( #197, #114 ) ;
#147 = ADVANCED_FACE ( 'NONE', ( #313 ), #200, .F. ) ;
#148 = PERSON_AND_ORGANIZATION ( #173, #24 ) ;
#149 = AXIS2_PLACEMENT_3D ( 'NONE', #158, #190, #276 ) ;
#150 = CC_DESIGN_PERSON_AND_ORGANIZATION_ASSIGNMENT ( #60, #66, ( #207 ) ) ;
#151 = PERSON_AND_ORGANIZATION_ROLE ( 'creator' ) ;
#152 = VERTEX_POINT ( 'NONE', #257 ) ;
#153 = VECTOR ( 'NONE', #287, 999.9999999999998863 ) ;
#154 = ORIENTED_EDGE ( 'NONE', *, *, #215, .F. ) ;
#155 = ADVANCED_FACE ( 'NONE', ( #235 ), #216, .T. ) ;
#156 = DIRECTION ( 'NONE',  ( 0.000000000000000000, 0.000000000000000000, -1.000000000000000000 ) ) ;
#157 = CARTESIAN_POINT ( 'NONE',  ( -12.69999999999999574, -12.69999999999999396, 12.69999999999999929 ) ) ;
#158 = CARTESIAN_POINT ( 'NONE',  ( 0.000000000000000000, 0.000000000000000000, -12.69999999999999929 ) ) ;
#159 = EDGE_CURVE ( 'NONE', #152, #7, #21, .T. ) ;
#160 = LINE ( 'NONE', #260, #35 ) ;
#161 = APPLICATION_CONTEXT ( 'configuration controlled 3d designs of mechanical parts and assemblies' ) ;
#162 = DIRECTION ( 'NONE',  ( -0.000000000000000000, 1.000000000000000000, -0.000000000000000000 ) ) ;
#163 = VERTEX_POINT ( 'NONE', #113 ) ;
#164 = PLANE ( 'NONE',  #65 ) ;
#165 = APPROVAL ( #286, 'UNSPECIFIED' ) ;
#166 = MANIFOLD_SOLID_BREP ( '¾µÏ', #112 ) ;
#167 = EDGE_LOOP ( 'NONE', ( #83, #301, #71, #298 ) ) ;
#168 = EDGE_CURVE ( 'NONE', #163, #129, #211, .T. ) ;
#169 = APPROVAL_STATUS ( 'not_yet_approved' ) ;
#170 = CARTESIAN_POINT ( 'NONE',  ( -12.70000000000000284, 12.70000000000000284, 12.69999999999999929 ) ) ;
#171 = DIRECTION ( 'NONE',  ( -0.7071067811865474617, -0.7071067811865474617, 0.000000000000000000 ) ) ;
#172 = LINE ( 'NONE', #32, #119 ) ;
#173 = PERSON ( 'UNSPECIFIED', 'UNSPECIFIED', 'UNSPECIFIED', ('UNSPECIFIED'), ('UNSPECIFIED'), ('UNSPECIFIED') ) ;
#174 =( NAMED_UNIT ( * ) PLANE_ANGLE_UNIT ( ) SI_UNIT ( $, .RADIAN. ) );
#175 = VECTOR ( 'NONE', #105, 1000.000000000000000 ) ;
#176 = FACE_OUTER_BOUND ( 'NONE', #68, .T. ) ;
#177 = UNCERTAINTY_MEASURE_WITH_UNIT (LENGTH_MEASURE( 1.000000000000000082E-05 ), #33, 'distance_accuracy_value', 'NONE');
#178 = PLANE ( 'NONE',  #238 ) ;
#179 = CC_DESIGN_PERSON_AND_ORGANIZATION_ASSIGNMENT ( #148, #209, ( #259 ) ) ;
#180 = APPROVAL_DATE_TIME ( #230, #90 ) ;
#181 = ORIENTED_EDGE ( 'NONE', *, *, #18, .T. ) ;
#182 = APPROVAL_ROLE ( '' ) ;
#183 = COORDINATED_UNIVERSAL_TIME_OFFSET ( 8, 0, .AHEAD. ) ;
#184 = ORIENTED_EDGE ( 'NONE', *, *, #29, .F. ) ;
#185 = ORIENTED_EDGE ( 'NONE', *, *, #38, .F. ) ;
#186 = CARTESIAN_POINT ( 'NONE',  ( 0.000000000000000000, 0.000000000000000000, 12.69999999999999929 ) ) ;
#187 = VERTEX_POINT ( 'NONE', #240 ) ;
#188 = LINE ( 'NONE', #107, #308 ) ;
#189 = CARTESIAN_POINT ( 'NONE',  ( 12.69999999999999929, -12.69999999999999929, 12.69999999999999929 ) ) ;
#190 = DIRECTION ( 'NONE',  ( 0.000000000000000000, 0.000000000000000000, 1.000000000000000000 ) ) ;
#191 = EDGE_CURVE ( 'NONE', #210, #7, #306, .T. ) ;
#192 = AXIS2_PLACEMENT_3D ( 'NONE', #186, #22, #109 ) ;
#193 = CARTESIAN_POINT ( 'NONE',  ( -12.69999999999999574, -12.69999999999999396, -12.69999999999999929 ) ) ;
#194 = ORIENTED_EDGE ( 'NONE', *, *, #106, .F. ) ;
#195 = CC_DESIGN_PERSON_AND_ORGANIZATION_ASSIGNMENT ( #67, #151, ( #259 ) ) ;
#196 = AXIS2_PLACEMENT_3D ( 'NONE', #5, #2, #46 ) ;
#197 = CALENDAR_DATE ( 2021, 5, 1 ) ;
#198 = CARTESIAN_POINT ( 'NONE',  ( -12.69999999999999751, -12.69999999999999929, -12.69999999999999929 ) ) ;
#199 = VECTOR ( 'NONE', #214, 1000.000000000000000 ) ;
#200 = PLANE ( 'NONE',  #10 ) ;
#201 = COORDINATED_UNIVERSAL_TIME_OFFSET ( 8, 0, .AHEAD. ) ;
#202 = APPLICATION_PROTOCOL_DEFINITION ( 'international standard', 'config_control_design', 1994, #161 ) ;
#203 = AXIS2_PLACEMENT_3D ( 'NONE', #8, #85, #223 ) ;
#204 = EDGE_CURVE ( 'NONE', #129, #17, #262, .T. ) ;
#205 = AXIS2_PLACEMENT_3D ( 'NONE', #303, #300, #140 ) ;
#206 = EDGE_LOOP ( 'NONE', ( #154, #99, #310, #37 ) ) ;
#207 = PRODUCT_DEFINITION ( 'UNKNOWN', '', #259, #311 ) ;
#208 = CALENDAR_DATE ( 2021, 5, 1 ) ;
#209 = PERSON_AND_ORGANIZATION_ROLE ( 'design_supplier' ) ;
#210 = VERTEX_POINT ( 'NONE', #82 ) ;
#211 = LINE ( 'NONE', #309, #175 ) ;
#212 = VECTOR ( 'NONE', #258, 1000.000000000000000 ) ;
#213 = SECURITY_CLASSIFICATION ( '', '', #317 ) ;
#214 = DIRECTION ( 'NONE',  ( 1.000000000000000000, -2.220446049250312588E-16, 0.000000000000000000 ) ) ;
#215 = EDGE_CURVE ( 'NONE', #17, #263, #188, .T. ) ;
#216 = PLANE ( 'NONE',  #205 ) ;
#217 = ORIENTED_EDGE ( 'NONE', *, *, #44, .T. ) ;
#218 = DIRECTION ( 'NONE',  ( 0.000000000000000000, -0.000000000000000000, 1.000000000000000000 ) ) ;
#219 = CARTESIAN_POINT ( 'NONE',  ( 12.69999999999999574, 12.69999999999999574, 12.69999999999999929 ) ) ;
#220 = CLOSED_SHELL ( 'NONE', ( #116, #147, #11, #270, #224 ) ) ;
#221 = CARTESIAN_POINT ( 'NONE',  ( 12.69999999999999929, 12.69999999999999929, 12.69999999999999929 ) ) ;
#222 = CARTESIAN_POINT ( 'NONE',  ( -12.69999999999999751, -12.69999999999999929, -12.69999999999999929 ) ) ;
#223 = DIRECTION ( 'NONE',  ( 1.000000000000000000, 0.000000000000000000, 0.000000000000000000 ) ) ;
#224 = ADVANCED_FACE ( 'NONE', ( #245 ), #242, .F. ) ;
#225 = PERSON_AND_ORGANIZATION ( #173, #24 ) ;
#226 = DIRECTION ( 'NONE',  ( 1.000000000000000000, 0.000000000000000000, 0.000000000000000000 ) ) ;
#227 = APPROVAL_PERSON_ORGANIZATION ( #225, #165, #12 ) ;
#228 = COORDINATED_UNIVERSAL_TIME_OFFSET ( 8, 0, .AHEAD. ) ;
#229 = CARTESIAN_POINT ( 'NONE',  ( 12.69999999999999574, 12.69999999999999574, 12.69999999999999929 ) ) ;
#230 = DATE_AND_TIME ( #208, #295 ) ;
#231 = ORIENTED_EDGE ( 'NONE', *, *, #215, .T. ) ;
#232 = VECTOR ( 'NONE', #280, 1000.000000000000000 ) ;
#233 = EDGE_LOOP ( 'NONE', ( #139, #272, #73, #79 ) ) ;
#234 =( GEOMETRIC_REPRESENTATION_CONTEXT ( 3 ) GLOBAL_UNCERTAINTY_ASSIGNED_CONTEXT ( ( #177 ) ) GLOBAL_UNIT_ASSIGNED_CONTEXT ( ( #33, #174, #118 ) ) REPRESENTATION_CONTEXT ( 'NONE', 'WORKASPACE' ) );
#235 = FACE_OUTER_BOUND ( 'NONE', #274, .T. ) ;
#236 = CC_DESIGN_DATE_AND_TIME_ASSIGNMENT ( #146, #57, ( #207 ) ) ;
#237 = AXIS2_PLACEMENT_3D ( 'NONE', #58, #290, #13 ) ;
#238 = AXIS2_PLACEMENT_3D ( 'NONE', #145, #271, #14 ) ;
#239 = LINE ( 'NONE', #282, #212 ) ;
#240 = CARTESIAN_POINT ( 'NONE',  ( 12.69999999999999929, -12.69999999999999929, 12.69999999999999929 ) ) ;
#241 = LINE ( 'NONE', #219, #153 ) ;
#242 = PLANE ( 'NONE',  #95 ) ;
#243 = PRODUCT ( 'BK7-LNPBSC-25.4-780', 'BK7-LNPBSC-25.4-780', '', ( #266 ) ) ;
#244 = CARTESIAN_POINT ( 'NONE',  ( 12.69999999999999929, 12.69999999999999929, -12.69999999999999929 ) ) ;
#245 = FACE_OUTER_BOUND ( 'NONE', #294, .T. ) ;
#246 = VECTOR ( 'NONE', #162, 1000.000000000000000 ) ;
#247 = LINE ( 'NONE', #222, #291 ) ;
#248 = FACE_OUTER_BOUND ( 'NONE', #206, .T. ) ;
#249 = PERSON_AND_ORGANIZATION ( #173, #24 ) ;
#250 = PRODUCT_RELATED_PRODUCT_CATEGORY ( 'detail', '', ( #243 ) ) ;
#251 = ORIENTED_EDGE ( 'NONE', *, *, #302, .F. ) ;
#252 = VERTEX_POINT ( 'NONE', #135 ) ;
#253 = ADVANCED_FACE ( 'NONE', ( #3 ), #47, .F. ) ;
#254 = CC_DESIGN_APPROVAL ( #81, ( #259 ) ) ;
#255 = ORIENTED_EDGE ( 'NONE', *, *, #191, .T. ) ;
#256 = EDGE_CURVE ( 'NONE', #129, #296, #264, .T. ) ;
#257 = CARTESIAN_POINT ( 'NONE',  ( 12.69999999999999929, -12.69999999999999929, -12.69999999999999929 ) ) ;
#258 = DIRECTION ( 'NONE',  ( 0.000000000000000000, 0.000000000000000000, -1.000000000000000000 ) ) ;
#259 = PRODUCT_DEFINITION_FORMATION_WITH_SPECIFIED_SOURCE ( 'ANY', '', #243, .NOT_KNOWN. ) ;
#260 = CARTESIAN_POINT ( 'NONE',  ( 12.69999999999999929, 12.69999999999999929, 12.69999999999999929 ) ) ;
#261 = EDGE_CURVE ( 'NONE', #187, #210, #42, .T. ) ;
#262 = LINE ( 'NONE', #1, #319 ) ;
#263 = VERTEX_POINT ( 'NONE', #50 ) ;
#264 = LINE ( 'NONE', #102, #199 ) ;
#265 = DIRECTION ( 'NONE',  ( -0.7071067811865475727, -0.7071067811865475727, 0.000000000000000000 ) ) ;
#266 = MECHANICAL_CONTEXT ( 'NONE', #161, 'mechanical' ) ;
#267 = EDGE_LOOP ( 'NONE', ( #217, #51, #318 ) ) ;
#268 = DIRECTION ( 'NONE',  ( -0.000000000000000000, -0.000000000000000000, -1.000000000000000000 ) ) ;
#269 = CARTESIAN_POINT ( 'NONE',  ( -12.69999999999999751, -12.69999999999999929, 12.69999999999999929 ) ) ;
#270 = ADVANCED_FACE ( 'NONE', ( #76 ), #138, .T. ) ;
#271 = DIRECTION ( 'NONE',  ( 2.220446049250312588E-16, -1.000000000000000000, 0.000000000000000000 ) ) ;
#272 = ORIENTED_EDGE ( 'NONE', *, *, #18, .F. ) ;
#273 = SHAPE_DEFINITION_REPRESENTATION ( #100, #131 ) ;
#274 = EDGE_LOOP ( 'NONE', ( #104, #304, #20 ) ) ;
#275 = CC_DESIGN_SECURITY_CLASSIFICATION ( #213, ( #259 ) ) ;
#276 = DIRECTION ( 'NONE',  ( -2.220446049250312588E-16, 1.000000000000000000, 0.000000000000000000 ) ) ;
#277 = ORIENTED_EDGE ( 'NONE', *, *, #29, .T. ) ;
#278 = ORIENTED_EDGE ( 'NONE', *, *, #59, .T. ) ;
#279 = DIRECTION ( 'NONE',  ( -0.000000000000000000, 0.000000000000000000, 1.000000000000000000 ) ) ;
#280 = DIRECTION ( 'NONE',  ( -0.000000000000000000, -0.000000000000000000, -1.000000000000000000 ) ) ;
#281 = APPROVAL_PERSON_ORGANIZATION ( #72, #90, #182 ) ;
#282 = CARTESIAN_POINT ( 'NONE',  ( -12.69999999999999574, -12.69999999999999396, 12.69999999999999929 ) ) ;
#283 = EDGE_CURVE ( 'NONE', #285, #17, #84, .T. ) ;
#284 = CARTESIAN_POINT ( 'NONE',  ( 12.69999999999999929, 12.69999999999999929, -12.69999999999999929 ) ) ;
#285 = VERTEX_POINT ( 'NONE', #288 ) ;
#286 = APPROVAL_STATUS ( 'not_yet_approved' ) ;
#287 = DIRECTION ( 'NONE',  ( -0.7071067811865475727, -0.7071067811865475727, 0.000000000000000000 ) ) ;
#288 = CARTESIAN_POINT ( 'NONE',  ( -12.69999999999999574, -12.69999999999999396, -12.69999999999999929 ) ) ;
#289 = CALENDAR_DATE ( 2021, 5, 1 ) ;
#290 = DIRECTION ( 'NONE',  ( -0.7071067811865475727, 0.7071067811865475727, 0.000000000000000000 ) ) ;
#291 = VECTOR ( 'NONE', #48, 1000.000000000000000 ) ;
#292 = DATE_AND_TIME ( #316, #127 ) ;
#293 = CALENDAR_DATE ( 2021, 5, 1 ) ;
#294 = EDGE_LOOP ( 'NONE', ( #251, #299, #185 ) ) ;
#295 = LOCAL_TIME ( 10, 2, 46.00000000000000000, #183 ) ;
#296 = VERTEX_POINT ( 'NONE', #229 ) ;
#297 = DATE_AND_TIME ( #293, #41 ) ;
#298 = ORIENTED_EDGE ( 'NONE', *, *, #36, .T. ) ;
#299 = ORIENTED_EDGE ( 'NONE', *, *, #159, .F. ) ;
#300 = DIRECTION ( 'NONE',  ( 0.000000000000000000, 0.000000000000000000, 1.000000000000000000 ) ) ;
#301 = ORIENTED_EDGE ( 'NONE', *, *, #191, .F. ) ;
#302 = EDGE_CURVE ( 'NONE', #7, #117, #125, .T. ) ;
#303 = CARTESIAN_POINT ( 'NONE',  ( 0.000000000000000000, 0.000000000000000000, 12.69999999999999929 ) ) ;
#304 = ORIENTED_EDGE ( 'NONE', *, *, #256, .F. ) ;
#305 = ADVANCED_FACE ( 'NONE', ( #248 ), #178, .F. ) ;
#306 = LINE ( 'NONE', #45, #94 ) ;
#307 = VECTOR ( 'NONE', #25, 1000.000000000000000 ) ;
#308 = VECTOR ( 'NONE', #30, 1000.000000000000000 ) ;
#309 = CARTESIAN_POINT ( 'NONE',  ( -12.69999999999999574, -12.69999999999999396, 12.69999999999999929 ) ) ;
#310 = ORIENTED_EDGE ( 'NONE', *, *, #256, .T. ) ;
#311 = DESIGN_CONTEXT ( 'detailed design', #110, 'design' ) ;
#312 = LINE ( 'NONE', #61, #97 ) ;
#313 = FACE_OUTER_BOUND ( 'NONE', #55, .T. ) ;
#314 = APPROVAL_DATE_TIME ( #292, #165 ) ;
#315 = PLANE ( 'NONE',  #80 ) ;
#316 = CALENDAR_DATE ( 2021, 5, 1 ) ;
#317 = SECURITY_CLASSIFICATION_LEVEL ( 'unclassified' ) ;
#318 = ORIENTED_EDGE ( 'NONE', *, *, #261, .T. ) ;
#319 = VECTOR ( 'NONE', #156, 1000.000000000000000 ) ;
#320 = APPROVAL_DATE_TIME ( #62, #81 ) ;
#321 = DIRECTION ( 'NONE',  ( 1.000000000000000000, 0.000000000000000000, 0.000000000000000000 ) ) ;
ENDSEC;
END-ISO-10303-21;
